145114 ランダム
 HOME | DIARY | PROFILE 【フォローする】 【ログイン】

On The Way Down

PR

2005.11.15
XML
カテゴリ:Avril★


THEY"RE REALLY CUTR TOGETHER

"It's You" by Ryan Cabrera

Intro:
e|----------------------------|
b|-----3--1----------3--1-----|
G|--3--3--2--0--2s1--3--2--0--|
D|--5--3--3--1-------3--3--1--|
A|----------------------------|
E|----------------------------|

Verse:
e|-------------|
b|-----3--1----|
G|--3--3--2--0-|
D|--5--3--3--1-|
A|-------------|
E|-------------|

(does that through the whole verse)

Bridge:
e|-----
b|--3--
G|--3-- x4
D|--3--
A|-----
E|-----

e|-----
b|--1--
G|--2-- x4
D|--3--
A|-----
E|-----

e|-----
b|-----
G|--0--
D|--1-- x4
A|-----
E|-----

e|------------|
b|------------|
G|--3----3-2--|
D|--5--5------|
A|------------|
E|------------|

ComE toGEther Now!!!!!!!!!!!!!

Image hosted by TinyPic.comImage hosted by TinyPic.comImage hosted by TinyPic.comImage hosted by TinyPic.comImage hosted by TinyPic.comImage hosted by TinyPic.comImage hosted by TinyPic.com






Last updated  2005.11.26 01:07:10
コメント(2) | コメントを書く
[Avril★] カテゴリの最新記事



© Rakuten Group, Inc.